Acoustic Guitar

Labels

No Copyrights Reserved From The Songs!................................................................................... ............................................cccFind Us On lyricsandtabs@gmail.com
lyricsandtabs@gmail.com.Contact us!!

Thursday, 4 April 2013

Στην Κ


Capo: 2
*b= στο bend σηκώνει ίσα ίσα τη χορδή
*ελπίζω να σας φανεί κατανοητό.Θα σας βοηθήσει αν το ακούσετε παράλληλα
*θα ανέβει και το σόλο





                                                            όταν...       κάποιο...
e--------0-------------0-----------------3-------------3-
B------0---0--------3b---0----0----------0--0----------0-
G----0-------0----0--------0----0------0------0------0---
D-02-----------02-----------------02------------02-------
A-02-----------02--------------------2-------------2-----
E-----------------------------3-------------3------------

  σε ξυπνήσει απότομη..         κραυγή..
e-3--1------1-------------0---0--------3----3-------0---0-
B-3--1------1-----1-----1-----1-----01-1--1-------3b--0---
G-2--2----2-----2-----0-------0---0----0--------0---------
D-2--3--3-----3-----2------------------2------------------
A-------------------3-------3-----------------------------
E-------------------------------3--------------0----------

  τρέξεις..  μαμά..     πεις..
e------------3------3--------3-3----3--------0----0-
B-0----------0------3---3--0-1-1--1--------3b---0---
G---0------0--------4---4--0-0-0---------0----------
D-----02----------4---4----2-2-2--------------------
A--------2------2----------2-0-0--------------------
E-3------------------------------------0------------

κείνη..                       το ψυγείο κλείσει..
e-------------3-------------3--3--1------1---1-------0-
B-0-----------0--0----------0--3--1------1---1-----1---
G---0-------0------0------0----2--2----2-----2---0-----
D-----02-------------02--------2--3--3-----3---2-------
A--------2--------------2---------3--3---------3-------
E-3--------------3-------------------------------------

e-0--------3----3-------0---0-
B-1-----01-1--1-------3b--0---
G-0---0----0--------0---------
D----------2------------------
A----------2------------------
E---3-------------0-----------


μα θα...   μεσάνυχτα..  θα'χεις κουραστεί
e-0--0---0----0----0----------01------0------0--------0--3b-0-
B-1--1---1----0----0--------3----3----0----0---0---3b---------
G-2--0-0---0--0--0---0----2--------2--0--0-------0------------
D-2--2--------2---------0-------------2-----------------------
A-0--3--------2-----------------------2-----------------------
E-------------------------------------------------------------

γέφυρα: Bm-G-Am-C-Bm x3
        Bm-G-F-Em-F-Em

Όταν κάποιο βράδυ θα σε ξυπνήσει απότομη η κραυγή σου
και τρέξεις στη μαμά σου να το πεις
Και κείνη τρομαγμένη μες στο ψυγείο κλείσει τη φωνή σου
μα θα `ναι αργά μεσάνυχτα και θα `χεις κουραστεί

Όταν θ’ αγαπήσεις το γέλιο σου και την αναπνοή σου
και δεις πως έχεις κάτι να μας πεις
Στο πλάι σου ο άνθρωπος που διάλεξες βιτρίνα στη ζωή σου,
τριάκοντα αργύρια αντίτιμο σιωπής

Πες μας τι θα γίνει αν κάποτε θ’ αγγίξεις το κορμί σου
και το βρεις τσακισμένο απ’ τις πληγές
Και γύρω σου κούκλες χλωμές ανίκανες ν’ ακούσουν τη φωνή σου
κι οι αλήθειες σου να σέρνονται στο πάτωμα γυμνές

Return to:
Παύλος Σιδηρόπουλος

Go to:Home Page

Πήγαινε στις Μουσικές Δημιουργίες

No comments :

Post a Comment

Please do not spam!