Acoustic Guitar

Labels

No Copyrights Reserved From The Songs!................................................................................... ............................................cccFind Us On lyricsandtabs@gmail.com
lyricsandtabs@gmail.com.Contact us!!

Friday, 26 October 2012

Παράκληση



 
Γέμισμα 1          Γέμισμα 2
e----------------------------------
B-0-h-1--0-----------0-h-1--0------
G------------------------------0---
D----------------------------------
A----------------------------------
E----------------------------------
Am                G                          F        G γέμισμα1
Περπάτησα πάρα πολύ και τα φτερά μου τα 'χω χάσει

Am                        D             G          Em
Μα εσύ που δεν πατάς στη γη καν' την ψυχή μου να πετάξει

F                    G               C      G          Amγέμισμα2
Μ' ένα αερόστατο να πάμε στο φεγγάρι ένα αεράκι να μας πάρει

F                   G              F       G      Am
Φωτιά και αέρας να κάνουμε δική μας τη μικρή ζωή μας


Είν' η καρδιά μου μια αυλή σ' ένα κελί που όλο μικραίνει
Μα εσύ που έχεις το κλειδί έλα και πες μου το γιατί
Σε κάποια θάλασσα που ο ήλιος τη ζεσταίνει το όνειρο μου ξαποσταίνει
Νερό και αρμύρα να κάνουμε δική μας τη μικρή ζωή μας

e------0--0-2-3-2-0----3--0-3-5-2---   |
B----1--------------0---------------   |
G--2--------------------------------   |
D-----------------------------------   |
A-----------------------------------   |
E-----------------------------------   |
                                       |    x2
e--3-0---0-2-3-2-0-----3-0-2-3-0----   |
B------1-----------0----------------   |
G------------------------------0----   |
D-----------------------------------   |
A-----------------------------------   |
E-----------------------------------   |

Έχω ένα κόμπο στο λαιμό και μια θηλιά που όλο στενεύει
Έλα και κάνε μουσική την τρέλα που με διαφεντεύει
Κι αν είναι οι νότες και οι λέξεις αφελείς τραγούδησε τες να χαρείς
Μ' ένα τραγούδι να κάνουμε δική μας τη μικρή ζωή μας

No comments :

Post a Comment

Please do not spam!